  0
SECTION
  2
HEADER
  9
$ACADVER
  1
AC1014
  9
$HANDSEED
  5
FFFF
  9
$MEASUREMENT
 70
     1
  0
ENDSEC
  0
SECTION
  2
TABLES
  0
TABLE
  2
VPORT
  5
8
330
0
100
AcDbSymbolTable
 70
     4
  0
VPORT
  5
2E
330
8
100
AcDbSymbolTableRecord
100
AcDbViewportTableRecord
  2
*ACTIVE
 70
     0
 10
0.0
 20
0.0
 11
1.0
 21
1.0
 12
210.0
 22
148.5
 13
0.0
 23
0.0
 14
10.0
 24
10.0
 15
10.0
 25
10.0
 16
0.0
 26
0.0
 36
1.0
 17
0.0
 27
0.0
 37
0.0
 40
341.0
 41
1.24
 42
50.0
 43
0.0
 44
0.0
 50
0.0
 51
0.0
 71
     0
 72
   100
 73
     1
 74
     3
 75
     0
 76
     0
 77
     0
 78
     0
  0
ENDTAB
  0
TABLE
  2
LTYPE
  5
5
330
0
100
AcDbSymbolTable
 70
     1
  0
LTYPE
  5
14
330
5
100
AcDbSymbolTableRecord
100
AcDbLinetypeTableRecord
  2
BYBLOCK
 70
     0
  3

 72
    65
 73
     0
 40
0.0
  0
LTYPE
  5
15
330
5
100
AcDbSymbolTableRecord
100
AcDbLinetypeTableRecord
  2
BYLAYER
 70
     0
  3

 72
    65
 73
     0
 40
0.0
  0
LTYPE
  5
16
330
5
100
AcDbSymbolTableRecord
100
AcDbLinetypeTableRecord
  2
CONTINUOUS
 70
     0
  3
Solid line
 72
    65
 73
     0
 40
0.0
  0
ENDTAB
  0
TABLE
  2
LAYER
  5
2
100
AcDbSymbolTable
 70
1
  0
LAYER
  5
50
100
AcDbSymbolTableRecord
100
AcDbLayerTableRecord
  2
0
 70
0
  6
CONTINUOUS
  0
ENDTAB
  0
TABLE
  2
STYLE
  5
3
330
0
100
AcDbSymbolTable
 70
     1
  0
STYLE
  5
11
330
3
100
AcDbSymbolTableRecord
100
AcDbTextStyleTableRecord
  2
STANDARD
 70
     0
 40
0.0
 41
1.0
 50
0.0
 71
     0
 42
2.5
  3
txt
  4

  0
ENDTAB
  0
TABLE
  2
VIEW
  5
6
330
0
100
AcDbSymbolTable
 70
     0
  0
ENDTAB
  0
TABLE
  2
UCS
  5
7
330
0
100
AcDbSymbolTable
 70
     0
  0
ENDTAB
  0
TABLE
  2
APPID
  5
9
330
0
100
AcDbSymbolTable
 70
     2
  0
APPID
  5
12
330
9
100
AcDbSymbolTableRecord
100
AcDbRegAppTableRecord
  2
ACAD
 70
     0
  0
ENDTAB
  0
TABLE
  2
DIMSTYLE
  5
A
330
0
100
AcDbSymbolTable
 70
     1
  0
DIMSTYLE
105
27
330
A
100
AcDbSymbolTableRecord
100
AcDbDimStyleTableRecord
  2
ISO-25
 70
     0
  3

  4

  5

  6

  7

 40
1.0
 41
2.5
 42
0.625
 43
3.75
 44
1.25
 45
0.0
 46
0.0
 47
0.0
 48
0.0
140
2.5
141
2.5
142
0.0
143
0.03937007874016
144
1.0
145
0.0
146
1.0
147
0.625
 71
     0
 72
     0
 73
     0
 74
     0
 75
     0
 76
     0
 77
     1
 78
     8
170
     0
171
     3
172
     1
173
     0
174
     0
175
     0
176
     0
177
     0
178
     0
270
     2
271
     2
272
     2
273
     2
274
     3
340
11
275
     0
280
     0
281
     0
282
     0
283
     0
284
     8
285
     0
286
     0
287
     3
288
     0
  0
ENDTAB
  0
TABLE
  2
BLOCK_RECORD
  5
1
330
0
100
AcDbSymbolTable
 70
     1
  0
BLOCK_RECORD
  5
1F
330
1
100
AcDbSymbolTableRecord
100
AcDbBlockTableRecord
  2
*MODEL_SPACE
  0
BLOCK_RECORD
  5
1B
330
1
100
AcDbSymbolTableRecord
100
AcDbBlockTableRecord
  2
*PAPER_SPACE
  0
ENDTAB
  0
ENDSEC
  0
SECTION
  2
BLOCKS
  0
BLOCK
  5
20
330
1F
100
AcDbEntity
  8
0
100
AcDbBlockBegin
  2
*MODEL_SPACE
 70
     0
 10
0.0
 20
0.0
 30
0.0
  3
*MODEL_SPACE
  1

  0
ENDBLK
  5
21
330
1F
100
AcDbEntity
  8
0
100
AcDbBlockEnd
  0
BLOCK
  5
1C
330
1B
100
AcDbEntity
 67
     1
  8
0
100
AcDbBlockBegin
  2
*PAPER_SPACE
  1

  0
ENDBLK
  5
1D
330
1B
100
AcDbEntity
 67
     1
  8
0
100
AcDbBlockEnd
  0
ENDSEC
  0
SECTION
  2
ENTITIES
  0
SPLINE
  5
100
100
AcDbEntity
  8
0
 62
1
100
AcDbSpline
 70
8
 71
3
 72
8
 73
4
 74
0
 40
0
 40
0
 40
0
 40
0
 40
1
 40
1
 40
1
 40
1
 10
38.089594
 20
77.171296
 30
0.0
 10
36.206981
 20
77.109693
 30
0.0
 10
34.353427
 20
76.741120
 30
0.0
 10
32.500262
 20
76.432484
 30
0.0
  0
SPLINE
  5
101
100
AcDbEntity
  8
0
 62
1
100
AcDbSpline
 70
8
 71
3
 72
8
 73
4
 74
0
 40
0
 40
0
 40
0
 40
0
 40
1
 40
1
 40
1
 40
1
 10
32.500262
 20
76.432484
 30
0.0
 10
31.460415
 20
76.253570
 30
0.0
 10
30.436166
 20
75.994157
 30
0.0
 10
29.432760
 20
75.668545
 30
0.0
  0
SPLINE
  5
102
100
AcDbEntity
  8
0
 62
1
100
AcDbSpline
 70
8
 71
3
 72
8
 73
4
 74
0
 40
0
 40
0
 40
0
 40
0
 40
1
 40
1
 40
1
 40
1
 10
29.432760
 20
75.668545
 30
0.0
 10
28.213110
 20
75.306994
 30
0.0
 10
26.949926
 20
75.052063
 30
0.0
 10
25.730146
 20
74.651553
 30
0.0
  0
SPLINE
  5
103
100
AcDbEntity
  8
0
 62
1
100
AcDbSpline
 70
8
 71
3
 72
8
 73
4
 74
0
 40
0
 40
0
 40
0
 40
0
 40
1
 40
1
 40
1
 40
1
 10
25.730146
 20
74.651553
 30
0.0
 10
24.382229
 20
74.180629
 30
0.0
 10
23.110491
 20
73.522840
 30
0.0
 10
21.786526
 20
72.992198
 30
0.0
  0
SPLINE
  5
104
100
AcDbEntity
  8
0
 62
1
100
AcDbSpline
 70
8
 71
3
 72
8
 73
4
 74
0
 40
0
 40
0
 40
0
 40
0
 40
1
 40
1
 40
1
 40
1
 10
21.786526
 20
72.992198
 30
0.0
 10
20.913992
 20
72.624080
 30
0.0
 10
20.133786
 20
72.071982
 30
0.0
 10
19.417588
 20
71.458916
 30
0.0
  0
SPLINE
  5
105
100
AcDbEntity
  8
0
 62
1
100
AcDbSpline
 70
8
 71
3
 72
8
 73
4
 74
0
 40
0
 40
0
 40
0
 40
0
 40
1
 40
1
 40
1
 40
1
 10
19.417588
 20
71.458916
 30
0.0
 10
18.935144
 20
71.023746
 30
0.0
 10
18.559880
 20
70.485517
 30
0.0
 10
18.190393
 20
69.955067
 30
0.0
  0
SPLINE
  5
106
100
AcDbEntity
  8
0
 62
1
100
AcDbSpline
 70
8
 71
3
 72
8
 73
4
 74
0
 40
0
 40
0
 40
0
 40
0
 40
1
 40
1
 40
1
 40
1
 10
18.190393
 20
69.955067
 30
0.0
 10
17.606539
 20
69.088128
 30
0.0
 10
17.228074
 20
68.053819
 30
0.0
 10
17.287579
 20
66.997606
 30
0.0
  0
SPLINE
  5
107
100
AcDbEntity
  8
0
 62
1
100
AcDbSpline
 70
8
 71
3
 72
8
 73
4
 74
0
 40
0
 40
0
 40
0
 40
0
 40
1
 40
1
 40
1
 40
1
 10
17.287579
 20
66.997606
 30
0.0
 10
17.293479
 20
66.855400
 30
0.0
 10
17.303904
 20
66.713306
 30
0.0
 10
17.320842
 20
66.571944
 30
0.0
  0
SPLINE
  5
108
100
AcDbEntity
  8
0
 62
1
100
AcDbSpline
 70
8
 71
3
 72
8
 73
4
 74
0
 40
0
 40
0
 40
0
 40
0
 40
1
 40
1
 40
1
 40
1
 10
17.320842
 20
66.571944
 30
0.0
 10
16.168929
 20
66.752191
 30
0.0
 10
14.975341
 20
66.784624
 30
0.0
 10
13.841255
 20
66.477403
 30
0.0
  0
SPLINE
  5
109
100
AcDbEntity
  8
0
 62
1
100
AcDbSpline
 70
8
 71
3
 72
8
 73
4
 74
0
 40
0
 40
0
 40
0
 40
0
 40
1
 40
1
 40
1
 40
1
 10
13.841255
 20
66.477403
 30
0.0
 10
12.842122
 20
66.214188
 30
0.0
 10
11.920965
 20
65.718560
 30
0.0
 10
11.047176
 20
65.178151
 30
0.0
  0
SPLINE
  5
10a
100
AcDbEntity
  8
0
 62
1
100
AcDbSpline
 70
8
 71
3
 72
8
 73
4
 74
0
 40
0
 40
0
 40
0
 40
0
 40
1
 40
1
 40
1
 40
1
 10
11.047176
 20
65.178151
 30
0.0
 10
10.505976
 20
64.825427
 30
0.0
 10
10.050774
 20
64.355249
 30
0.0
 10
9.687718
 20
63.823276
 30
0.0
  0
SPLINE
  5
10b
100
AcDbEntity
  8
0
 62
1
100
AcDbSpline
 70
8
 71
3
 72
8
 73
4
 74
0
 40
0
 40
0
 40
0
 40
0
 40
1
 40
1
 40
1
 40
1
 10
9.687718
 20
63.823276
 30
0.0
 10
9.180623
 20
63.155573
 30
0.0
 10
8.855683
 20
62.369639
 30
0.0
 10
8.353948
 20
61.700027
 30
0.0
  0
SPLINE
  5
10c
100
AcDbEntity
  8
0
 62
1
100
AcDbSpline
 70
8
 71
3
 72
8
 73
4
 74
0
 40
0
 40
0
 40
0
 40
0
 40
1
 40
1
 40
1
 40
1
 10
8.353948
 20
61.700027
 30
0.0
 10
7.435868
 20
60.602969
 30
0.0
 10
6.350312
 20
59.626009
 30
0.0
 10
5.649521
 20
58.363200
 30
0.0
  0
SPLINE
  5
10d
100
AcDbEntity
  8
0
 62
1
100
AcDbSpline
 70
8
 71
3
 72
8
 73
4
 74
0
 40
0
 40
0
 40
0
 40
0
 40
1
 40
1
 40
1
 40
1
 10
5.649521
 20
58.363200
 30
0.0
 10
5.195168
 20
57.572752
 30
0.0
 10
4.762056
 20
56.770128
 30
0.0
 10
4.316394
 20
55.974804
 30
0.0
  0
SPLINE
  5
10e
100
AcDbEntity
  8
0
 62
1
100
AcDbSpline
 70
8
 71
3
 72
8
 73
4
 74
0
 40
0
 40
0
 40
0
 40
0
 40
1
 40
1
 40
1
 40
1
 10
4.316394
 20
55.974804
 30
0.0
 10
4.015404
 20
55.389107
 30
0.0
 10
3.692147
 20
54.814911
 30
0.0
 10
3.332512
 20
54.263533
 30
0.0
  0
SPLINE
  5
10f
100
AcDbEntity
  8
0
 62
1
100
AcDbSpline
 70
8
 71
3
 72
8
 73
4
 74
0
 40
0
 40
0
 40
0
 40
0
 40
1
 40
1
 40
1
 40
1
 10
3.332512
 20
54.263533
 30
0.0
 10
2.851746
 20
53.403653
 30
0.0
 10
2.430040
 20
52.512560
 30
0.0
 10
2.043944
 20
51.606690
 30
0.0
  0
SPLINE
  5
110
100
AcDbEntity
  8
0
 62
1
100
AcDbSpline
 70
8
 71
3
 72
8
 73
4
 74
0
 40
0
 40
0
 40
0
 40
0
 40
1
 40
1
 40
1
 40
1
 10
2.043944
 20
51.606690
 30
0.0
 10
1.739017
 20
50.908138
 30
0.0
 10
1.389743
 20
50.213575
 30
0.0
 10
1.291218
 20
49.447980
 30
0.0
  0
SPLINE
  5
111
100
AcDbEntity
  8
0
 62
1
100
AcDbSpline
 70
8
 71
3
 72
8
 73
4
 74
0
 40
0
 40
0
 40
0
 40
0
 40
1
 40
1
 40
1
 40
1
 10
1.291218
 20
49.447980
 30
0.0
 10
1.163633
 20
48.557985
 30
0.0
 10
1.176764
 20
47.650237
 30
0.0
 10
1.264971
 20
46.757136
 30
0.0
  0
SPLINE
  5
112
100
AcDbEntity
  8
0
 62
1
100
AcDbSpline
 70
8
 71
3
 72
8
 73
4
 74
0
 40
0
 40
0
 40
0
 40
0
 40
1
 40
1
 40
1
 40
1
 10
1.264971
 20
46.757136
 30
0.0
 10
1.358157
 20
45.885231
 30
0.0
 10
1.623833
 20
45.041938
 30
0.0
 10
1.988802
 20
44.247304
 30
0.0
  0
SPLINE
  5
113
100
AcDbEntity
  8
0
 62
1
100
AcDbSpline
 70
8
 71
3
 72
8
 73
4
 74
0
 40
0
 40
0
 40
0
 40
0
 40
1
 40
1
 40
1
 40
1
 10
1.988802
 20
44.247304
 30
0.0
 10
2.026053
 20
44.125503
 30
0.0
 10
2.130074
 20
43.996236
 30
0.0
 10
2.125989
 20
43.883262
 30
0.0
  0
SPLINE
  5
114
100
AcDbEntity
  8
0
 62
1
100
AcDbSpline
 70
8
 71
3
 72
8
 73
4
 74
0
 40
0
 40
0
 40
0
 40
0
 40
1
 40
1
 40
1
 40
1
 10
2.125989
 20
43.883262
 30
0.0
 10
1.614586
 20
43.285460
 30
0.0
 10
1.135026
 20
42.641443
 30
0.0
 10
0.872589
 20
41.891775
 30
0.0
  0
SPLINE
  5
115
100
AcDbEntity
  8
0
 62
1
100
AcDbSpline
 70
8
 71
3
 72
8
 73
4
 74
0
 40
0
 40
0
 40
0
 40
0
 40
1
 40
1
 40
1
 40
1
 10
0.872589
 20
41.891775
 30
0.0
 10
0.407445
 20
40.728180
 30
0.0
 10
0.109082
 20
39.478275
 30
0.0
 10
0.133711
 20
38.219941
 30
0.0
  0
SPLINE
  5
116
100
AcDbEntity
  8
0
 62
1
100
AcDbSpline
 70
8
 71
3
 72
8
 73
4
 74
0
 40
0
 40
0
 40
0
 40
0
 40
1
 40
1
 40
1
 40
1
 10
0.133711
 20
38.219941
 30
0.0
 10
0.182571
 20
36.987877
 30
0.0
 10
0.451539
 20
35.776949
 30
0.0
 10
0.741938
 20
34.582805
 30
0.0
  0
SPLINE
  5
117
100
AcDbEntity
  8
0
 62
1
100
AcDbSpline
 70
8
 71
3
 72
8
 73
4
 74
0
 40
0
 40
0
 40
0
 40
0
 40
1
 40
1
 40
1
 40
1
 10
0.741938
 20
34.582805
 30
0.0
 10
1.046867
 20
33.477019
 30
0.0
 10
1.496942
 20
32.415410
 30
0.0
 10
1.996991
 20
31.385133
 30
0.0
  0
SPLINE
  5
118
100
AcDbEntity
  8
0
 62
1
100
AcDbSpline
 70
8
 71
3
 72
8
 73
4
 74
0
 40
0
 40
0
 40
0
 40
0
 40
1
 40
1
 40
1
 40
1
 10
1.996991
 20
31.385133
 30
0.0
 10
2.483983
 20
30.444577
 30
0.0
 10
3.161425
 20
29.620310
 30
0.0
 10
3.845137
 20
28.817773
 30
0.0
  0
SPLINE
  5
119
100
AcDbEntity
  8
0
 62
1
100
AcDbSpline
 70
8
 71
3
 72
8
 73
4
 74
0
 40
0
 40
0
 40
0
 40
0
 40
1
 40
1
 40
1
 40
1
 10
3.845137
 20
28.817773
 30
0.0
 10
4.714883
 20
27.835873
 30
0.0
 10
5.582340
 20
26.801807
 30
0.0
 10
6.740604
 20
26.147546
 30
0.0
  0
SPLINE
  5
11a
100
AcDbEntity
  8
0
 62
1
100
AcDbSpline
 70
8
 71
3
 72
8
 73
4
 74
0
 40
0
 40
0
 40
0
 40
0
 40
1
 40
1
 40
1
 40
1
 10
6.740604
 20
26.147546
 30
0.0
 10
7.223686
 20
25.894189
 30
0.0
 10
7.771823
 20
25.781804
 30
0.0
 10
8.314668
 20
25.773925
 30
0.0
  0
SPLINE
  5
11b
100
AcDbEntity
  8
0
 62
1
100
AcDbSpline
 70
8
 71
3
 72
8
 73
4
 74
0
 40
0
 40
0
 40
0
 40
0
 40
1
 40
1
 40
1
 40
1
 10
8.314668
 20
25.773925
 30
0.0
 10
8.724619
 20
24.648782
 30
0.0
 10
9.735446
 20
23.776255
 30
0.0
 10
10.901216
 20
23.511902
 30
0.0
  0
SPLINE
  5
11c
100
AcDbEntity
  8
0
 62
1
100
AcDbSpline
 70
8
 71
3
 72
8
 73
4
 74
0
 40
0
 40
0
 40
0
 40
0
 40
1
 40
1
 40
1
 40
1
 10
10.901216
 20
23.511902
 30
0.0
 10
11.805927
 20
23.289221
 30
0.0
 10
12.742737
 20
23.257696
 30
0.0
 10
13.665878
 20
23.159996
 30
0.0
  0
SPLINE
  5
11d
100
AcDbEntity
  8
0
 62
1
100
AcDbSpline
 70
8
 71
3
 72
8
 73
4
 74
0
 40
0
 40
0
 40
0
 40
0
 40
1
 40
1
 40
1
 40
1
 10
13.665878
 20
23.159996
 30
0.0
 10
15.168441
 20
23.032155
 30
0.0
 10
16.695688
 20
23.087532
 30
0.0
 10
18.165342
 20
23.443582
 30
0.0
  0
SPLINE
  5
11e
100
AcDbEntity
  8
0
 62
1
100
AcDbSpline
 70
8
 71
3
 72
8
 73
4
 74
0
 40
0
 40
0
 40
0
 40
0
 40
1
 40
1
 40
1
 40
1
 10
18.165342
 20
23.443582
 30
0.0
 10
19.514304
 20
23.724900
 30
0.0
 10
20.873622
 20
23.983919
 30
0.0
 10
22.173501
 20
24.452559
 30
0.0
  0
SPLINE
  5
11f
100
AcDbEntity
  8
0
 62
1
100
AcDbSpline
 70
8
 71
3
 72
8
 73
4
 74
0
 40
0
 40
0
 40
0
 40
0
 40
1
 40
1
 40
1
 40
1
 10
22.173501
 20
24.452559
 30
0.0
 10
22.853321
 20
24.701950
 30
0.0
 10
23.561785
 20
24.909616
 30
0.0
 10
24.292501
 20
24.906796
 30
0.0
  0
SPLINE
  5
120
100
AcDbEntity
  8
0
 62
1
100
AcDbSpline
 70
8
 71
3
 72
8
 73
4
 74
0
 40
0
 40
0
 40
0
 40
0
 40
1
 40
1
 40
1
 40
1
 10
24.292501
 20
24.906796
 30
0.0
 10
24.630577
 20
23.660447
 30
0.0
 10
24.385404
 20
22.304625
 30
0.0
 10
24.897650
 20
21.097334
 30
0.0
  0
SPLINE
  5
121
100
AcDbEntity
  8
0
 62
1
100
AcDbSpline
 70
8
 71
3
 72
8
 73
4
 74
0
 40
0
 40
0
 40
0
 40
0
 40
1
 40
1
 40
1
 40
1
 10
24.897650
 20
21.097334
 30
0.0
 10
25.149076
 20
20.438675
 30
0.0
 10
25.553981
 20
19.839354
 30
0.0
 10
26.098152
 20
19.387769
 30
0.0
  0
SPLINE
  5
122
100
AcDbEntity
  8
0
 62
1
100
AcDbSpline
 70
8
 71
3
 72
8
 73
4
 74
0
 40
0
 40
0
 40
0
 40
0
 40
1
 40
1
 40
1
 40
1
 10
26.098152
 20
19.387769
 30
0.0
 10
26.876711
 20
18.708340
 30
0.0
 10
27.825210
 20
18.262104
 30
0.0
 10
28.776993
 20
17.881279
 30
0.0
  0
SPLINE
  5
123
100
AcDbEntity
  8
0
 62
1
100
AcDbSpline
 70
8
 71
3
 72
8
 73
4
 74
0
 40
0
 40
0
 40
0
 40
0
 40
1
 40
1
 40
1
 40
1
 10
28.776993
 20
17.881279
 30
0.0
 10
29.821054
 20
17.489833
 30
0.0
 10
30.951849
 20
17.354356
 30
0.0
 10
32.061016
 20
17.439076
 30
0.0
  0
SPLINE
  5
124
100
AcDbEntity
  8
0
 62
1
100
AcDbSpline
 70
8
 71
3
 72
8
 73
4
 74
0
 40
0
 40
0
 40
0
 40
0
 40
1
 40
1
 40
1
 40
1
 10
32.061016
 20
17.439076
 30
0.0
 10
32.801336
 20
17.494776
 30
0.0
 10
33.515283
 20
17.679629
 30
0.0
 10
34.241516
 20
17.835551
 30
0.0
  0
SPLINE
  5
125
100
AcDbEntity
  8
0
 62
1
100
AcDbSpline
 70
8
 71
3
 72
8
 73
4
 74
0
 40
0
 40
0
 40
0
 40
0
 40
1
 40
1
 40
1
 40
1
 10
34.241516
 20
17.835551
 30
0.0
 10
34.775583
 20
17.975648
 30
0.0
 10
35.260794
 20
17.645930
 30
0.0
 10
35.758835
 20
17.513762
 30
0.0
  0
SPLINE
  5
126
100
AcDbEntity
  8
0
 62
1
100
AcDbSpline
 70
8
 71
3
 72
8
 73
4
 74
0
 40
0
 40
0
 40
0
 40
0
 40
1
 40
1
 40
1
 40
1
 10
35.758835
 20
17.513762
 30
0.0
 10
37.106064
 20
17.082584
 30
0.0
 10
38.601907
 20
17.039161
 30
0.0
 10
39.946323
 20
17.504661
 30
0.0
  0
SPLINE
  5
127
100
AcDbEntity
  8
0
 62
1
100
AcDbSpline
 70
8
 71
3
 72
8
 73
4
 74
0
 40
0
 40
0
 40
0
 40
0
 40
1
 40
1
 40
1
 40
1
 10
39.946323
 20
17.504661
 30
0.0
 10
40.841284
 20
17.822335
 30
0.0
 10
41.522274
 20
18.516824
 30
0.0
 10
42.223954
 20
19.126310
 30
0.0
  0
SPLINE
  5
128
100
AcDbEntity
  8
0
 62
1
100
AcDbSpline
 70
8
 71
3
 72
8
 73
4
 74
0
 40
0
 40
0
 40
0
 40
0
 40
1
 40
1
 40
1
 40
1
 10
42.223954
 20
19.126310
 30
0.0
 10
42.342553
 20
19.231889
 30
0.0
 10
42.461153
 20
19.337466
 30
0.0
 10
42.579752
 20
19.443043
 30
0.0
  0
SPLINE
  5
129
100
AcDbEntity
  8
0
 62
1
100
AcDbSpline
 70
8
 71
3
 72
8
 73
4
 74
0
 40
0
 40
0
 40
0
 40
0
 40
1
 40
1
 40
1
 40
1
 10
42.579752
 20
19.443043
 30
0.0
 10
43.201735
 20
18.594635
 30
0.0
 10
43.929997
 20
17.830495
 30
0.0
 10
44.521886
 20
16.958436
 30
0.0
  0
SPLINE
  5
12a
100
AcDbEntity
  8
0
 62
1
100
AcDbSpline
 70
8
 71
3
 72
8
 73
4
 74
0
 40
0
 40
0
 40
0
 40
0
 40
1
 40
1
 40
1
 40
1
 10
44.521886
 20
16.958436
 30
0.0
 10
44.925024
 20
16.394329
 30
0.0
 10
45.392855
 20
15.876264
 30
0.0
 10
45.935920
 20
15.443644
 30
0.0
  0
SPLINE
  5
12b
100
AcDbEntity
  8
0
 62
1
100
AcDbSpline
 70
8
 71
3
 72
8
 73
4
 74
0
 40
0
 40
0
 40
0
 40
0
 40
1
 40
1
 40
1
 40
1
 10
45.935920
 20
15.443644
 30
0.0
 10
46.531359
 20
14.904169
 30
0.0
 10
47.147730
 20
14.377019
 30
0.0
 10
47.861509
 20
13.998104
 30
0.0
  0
SPLINE
  5
12c
100
AcDbEntity
  8
0
 62
1
100
AcDbSpline
 70
8
 71
3
 72
8
 73
4
 74
0
 40
0
 40
0
 40
0
 40
0
 40
1
 40
1
 40
1
 40
1
 10
47.861509
 20
13.998104
 30
0.0
 10
48.643570
 20
13.546257
 30
0.0
 10
49.513271
 20
13.216173
 30
0.0
 10
50.419066
 20
13.146270
 30
0.0
  0
SPLINE
  5
12d
100
AcDbEntity
  8
0
 62
1
100
AcDbSpline
 70
8
 71
3
 72
8
 73
4
 74
0
 40
0
 40
0
 40
0
 40
0
 40
1
 40
1
 40
1
 40
1
 10
50.419066
 20
13.146270
 30
0.0
 10
50.474608
 20
12.330925
 30
0.0
 10
50.579605
 20
11.491902
 30
0.0
 10
50.982227
 20
10.765026
 30
0.0
  0
SPLINE
  5
12e
100
AcDbEntity
  8
0
 62
1
100
AcDbSpline
 70
8
 71
3
 72
8
 73
4
 74
0
 40
0
 40
0
 40
0
 40
0
 40
1
 40
1
 40
1
 40
1
 10
50.982227
 20
10.765026
 30
0.0
 10
51.357213
 20
10.014162
 30
0.0
 10
51.889435
 20
9.320113
 30
0.0
 10
52.609480
 20
8.872348
 30
0.0
  0
SPLINE
  5
12f
100
AcDbEntity
  8
0
 62
1
100
AcDbSpline
 70
8
 71
3
 72
8
 73
4
 74
0
 40
0
 40
0
 40
0
 40
0
 40
1
 40
1
 40
1
 40
1
 10
52.609480
 20
8.872348
 30
0.0
 10
53.804822
 20
8.026658
 30
0.0
 10
54.988748
 20
7.164611
 30
0.0
 10
56.172660
 20
6.303234
 30
0.0
  0
SPLINE
  5
130
100
AcDbEntity
  8
0
 62
1
100
AcDbSpline
 70
8
 71
3
 72
8
 73
4
 74
0
 40
0
 40
0
 40
0
 40
0
 40
1
 40
1
 40
1
 40
1
 10
56.172660
 20
6.303234
 30
0.0
 10
56.736175
 20
5.882927
 30
0.0
 10
57.337435
 20
5.502398
 30
0.0
 10
57.807687
 20
4.971811
 30
0.0
  0
SPLINE
  5
131
100
AcDbEntity
  8
0
 62
1
100
AcDbSpline
 70
8
 71
3
 72
8
 73
4
 74
0
 40
0
 40
0
 40
0
 40
0
 40
1
 40
1
 40
1
 40
1
 10
57.807687
 20
4.971811
 30
0.0
 10
58.200797
 20
4.555420
 30
0.0
 10
58.650393
 20
4.144372
 30
0.0
 10
59.008720
 20
3.724626
 30
0.0
  0
SPLINE
  5
132
100
AcDbEntity
  8
0
 62
1
100
AcDbSpline
 70
8
 71
3
 72
8
 73
4
 74
0
 40
0
 40
0
 40
0
 40
0
 40
1
 40
1
 40
1
 40
1
 10
59.008720
 20
3.724626
 30
0.0
 10
59.498922
 20
3.096445
 30
0.0
 10
59.957304
 20
2.442665
 30
0.0
 10
60.500533
 20
1.857518
 30
0.0
  0
SPLINE
  5
133
100
AcDbEntity
  8
0
 62
1
100
AcDbSpline
 70
8
 71
3
 72
8
 73
4
 74
0
 40
0
 40
0
 40
0
 40
0
 40
1
 40
1
 40
1
 40
1
 10
60.500533
 20
1.857518
 30
0.0
 10
61.008348
 20
1.268830
 30
0.0
 10
61.605110
 20
0.711914
 30
0.0
 10
62.363652
 20
0.475954
 30
0.0
  0
SPLINE
  5
134
100
AcDbEntity
  8
0
 62
1
100
AcDbSpline
 70
8
 71
3
 72
8
 73
4
 74
0
 40
0
 40
0
 40
0
 40
0
 40
1
 40
1
 40
1
 40
1
 10
62.363652
 20
0.475954
 30
0.0
 10
63.260111
 20
0.143976
 30
0.0
 10
64.238653
 20
0.089265
 30
0.0
 10
65.177715
 20
0.158911
 30
0.0
  0
SPLINE
  5
135
100
AcDbEntity
  8
0
 62
1
100
AcDbSpline
 70
8
 71
3
 72
8
 73
4
 74
0
 40
0
 40
0
 40
0
 40
0
 40
1
 40
1
 40
1
 40
1
 10
65.177715
 20
0.158911
 30
0.0
 10
66.354417
 20
0.204936
 30
0.0
 10
67.563555
 20
0.187494
 30
0.0
 10
68.691188
 20
0.572646
 30
0.0
  0
SPLINE
  5
136
100
AcDbEntity
  8
0
 62
1
100
AcDbSpline
 70
8
 71
3
 72
8
 73
4
 74
0
 40
0
 40
0
 40
0
 40
0
 40
1
 40
1
 40
1
 40
1
 10
68.691188
 20
0.572646
 30
0.0
 10
69.504760
 20
0.856012
 30
0.0
 10
70.172182
 20
1.567632
 30
0.0
 10
70.312977
 20
2.429523
 30
0.0
  0
SPLINE
  5
137
100
AcDbEntity
  8
0
 62
1
100
AcDbSpline
 70
8
 71
3
 72
8
 73
4
 74
0
 40
0
 40
0
 40
0
 40
0
 40
1
 40
1
 40
1
 40
1
 10
70.312977
 20
2.429523
 30
0.0
 10
70.477318
 20
3.251226
 30
0.0
 10
70.174622
 20
4.077747
 30
0.0
 10
69.759644
 20
4.777057
 30
0.0
  0
SPLINE
  5
138
100
AcDbEntity
  8
0
 62
1
100
AcDbSpline
 70
8
 71
3
 72
8
 73
4
 74
0
 40
0
 40
0
 40
0
 40
0
 40
1
 40
1
 40
1
 40
1
 10
69.759644
 20
4.777057
 30
0.0
 10
69.398940
 20
5.450024
 30
0.0
 10
69.016993
 20
6.124558
 30
0.0
 10
68.465959
 20
6.663207
 30
0.0
  0
SPLINE
  5
139
100
AcDbEntity
  8
0
 62
1
100
AcDbSpline
 70
8
 71
3
 72
8
 73
4
 74
0
 40
0
 40
0
 40
0
 40
0
 40
1
 40
1
 40
1
 40
1
 10
68.465959
 20
6.663207
 30
0.0
 10
68.017950
 20
7.110080
 30
0.0
 10
67.512009
 20
7.493970
 30
0.0
 10
67.046472
 20
7.922301
 30
0.0
  0
SPLINE
  5
13a
100
AcDbEntity
  8
0
 62
1
100
AcDbSpline
 70
8
 71
3
 72
8
 73
4
 74
0
 40
0
 40
0
 40
0
 40
0
 40
1
 40
1
 40
1
 40
1
 10
67.046472
 20
7.922301
 30
0.0
 10
66.786966
 20
8.145773
 30
0.0
 10
66.525828
 20
8.367248
 30
0.0
 10
66.260472
 20
8.583759
 30
0.0
  0
SPLINE
  5
13b
100
AcDbEntity
  8
0
 62
1
100
AcDbSpline
 70
8
 71
3
 72
8
 73
4
 74
0
 40
0
 40
0
 40
0
 40
0
 40
1
 40
1
 40
1
 40
1
 10
66.260472
 20
8.583759
 30
0.0
 10
67.374674
 20
8.421239
 30
0.0
 10
68.512634
 20
8.607572
 30
0.0
 10
69.563553
 20
8.990418
 30
0.0
  0
SPLINE
  5
13c
100
AcDbEntity
  8
0
 62
1
100
AcDbSpline
 70
8
 71
3
 72
8
 73
4
 74
0
 40
0
 40
0
 40
0
 40
0
 40
1
 40
1
 40
1
 40
1
 10
69.563553
 20
8.990418
 30
0.0
 10
70.292700
 20
9.251398
 30
0.0
 10
71.011512
 20
9.550176
 30
0.0
 10
71.699325
 20
9.906136
 30
0.0
  0
SPLINE
  5
13d
100
AcDbEntity
  8
0
 62
1
100
AcDbSpline
 70
8
 71
3
 72
8
 73
4
 74
0
 40
0
 40
0
 40
0
 40
0
 40
1
 40
1
 40
1
 40
1
 10
71.699325
 20
9.906136
 30
0.0
 10
72.562695
 20
10.398374
 30
0.0
 10
73.374076
 20
11.080354
 30
0.0
 10
73.762201
 20
12.019360
 30
0.0
  0
SPLINE
  5
13e
100
AcDbEntity
  8
0
 62
1
100
AcDbSpline
 70
8
 71
3
 72
8
 73
4
 74
0
 40
0
 40
0
 40
0
 40
0
 40
1
 40
1
 40
1
 40
1
 10
73.762201
 20
12.019360
 30
0.0
 10
73.790975
 20
12.148357
 30
0.0
 10
73.947240
 20
12.007956
 30
0.0
 10
74.038003
 20
12.017772
 30
0.0
  0
SPLINE
  5
13f
100
AcDbEntity
  8
0
 62
1
100
AcDbSpline
 70
8
 71
3
 72
8
 73
4
 74
0
 40
0
 40
0
 40
0
 40
0
 40
1
 40
1
 40
1
 40
1
 10
74.038003
 20
12.017772
 30
0.0
 10
75.168591
 20
11.776329
 30
0.0
 10
76.352080
 20
12.027429
 30
0.0
 10
77.375134
 20
12.534329
 30
0.0
  0
SPLINE
  5
140
100
AcDbEntity
  8
0
 62
1
100
AcDbSpline
 70
8
 71
3
 72
8
 73
4
 74
0
 40
0
 40
0
 40
0
 40
0
 40
1
 40
1
 40
1
 40
1
 10
77.375134
 20
12.534329
 30
0.0
 10
78.223340
 20
12.925367
 30
0.0
 10
78.975519
 20
13.489527
 30
0.0
 10
79.711740
 20
14.056992
 30
0.0
  0
SPLINE
  5
141
100
AcDbEntity
  8
0
 62
1
100
AcDbSpline
 70
8
 71
3
 72
8
 73
4
 74
0
 40
0
 40
0
 40
0
 40
0
 40
1
 40
1
 40
1
 40
1
 10
79.711740
 20
14.056992
 30
0.0
 10
80.338226
 20
14.568268
 30
0.0
 10
80.806747
 20
15.283211
 30
0.0
 10
81.013866
 20
16.065997
 30
0.0
  0
SPLINE
  5
142
100
AcDbEntity
  8
0
 62
1
100
AcDbSpline
 70
8
 71
3
 72
8
 73
4
 74
0
 40
0
 40
0
 40
0
 40
0
 40
1
 40
1
 40
1
 40
1
 10
81.013866
 20
16.065997
 30
0.0
 10
81.051000
 20
16.210975
 30
0.0
 10
81.074630
 20
16.359004
 30
0.0
 10
81.089023
 20
16.507893
 30
0.0
  0
SPLINE
  5
143
100
AcDbEntity
  8
0
 62
1
100
AcDbSpline
 70
8
 71
3
 72
8
 73
4
 74
0
 40
0
 40
0
 40
0
 40
0
 40
1
 40
1
 40
1
 40
1
 10
81.089023
 20
16.507893
 30
0.0
 10
82.336893
 20
16.603014
 30
0.0
 10
83.447669
 20
17.268541
 30
0.0
 10
84.418534
 20
18.013745
 30
0.0
  0
SPLINE
  5
144
100
AcDbEntity
  8
0
 62
1
100
AcDbSpline
 70
8
 71
3
 72
8
 73
4
 74
0
 40
0
 40
0
 40
0
 40
0
 40
1
 40
1
 40
1
 40
1
 10
84.418534
 20
18.013745
 30
0.0
 10
85.181925
 20
18.619321
 30
0.0
 10
85.880925
 20
19.304774
 30
0.0
 10
86.534234
 20
20.026560
 30
0.0
  0
SPLINE
  5
145
100
AcDbEntity
  8
0
 62
1
100
AcDbSpline
 70
8
 71
3
 72
8
 73
4
 74
0
 40
0
 40
0
 40
0
 40
0
 40
1
 40
1
 40
1
 40
1
 10
86.534234
 20
20.026560
 30
0.0
 10
87.052847
 20
20.602423
 30
0.0
 10
87.446274
 20
21.279153
 30
0.0
 10
87.725814
 20
22.000256
 30
0.0
  0
SPLINE
  5
146
100
AcDbEntity
  8
0
 62
1
100
AcDbSpline
 70
8
 71
3
 72
8
 73
4
 74
0
 40
0
 40
0
 40
0
 40
0
 40
1
 40
1
 40
1
 40
1
 10
87.725814
 20
22.000256
 30
0.0
 10
88.035271
 20
22.733480
 30
0.0
 10
88.282445
 20
23.526171
 30
0.0
 10
88.375398
 20
24.302765
 30
0.0
  0
SPLINE
  5
147
100
AcDbEntity
  8
0
 62
1
100
AcDbSpline
 70
8
 71
3
 72
8
 73
4
 74
0
 40
0
 40
0
 40
0
 40
0
 40
1
 40
1
 40
1
 40
1
 10
88.375398
 20
24.302765
 30
0.0
 10
88.577262
 20
25.445662
 30
0.0
 10
88.448526
 20
26.635654
 30
0.0
 10
88.039914
 20
27.719776
 30
0.0
  0
SPLINE
  5
148
100
AcDbEntity
  8
0
 62
1
100
AcDbSpline
 70
8
 71
3
 72
8
 73
4
 74
0
 40
0
 40
0
 40
0
 40
0
 40
1
 40
1
 40
1
 40
1
 10
88.039914
 20
27.719776
 30
0.0
 10
87.696755
 20
28.775292
 30
0.0
 10
87.307114
 20
29.852265
 30
0.0
 10
86.563473
 20
30.699037
 30
0.0
  0
SPLINE
  5
149
100
AcDbEntity
  8
0
 62
1
100
AcDbSpline
 70
8
 71
3
 72
8
 73
4
 74
0
 40
0
 40
0
 40
0
 40
0
 40
1
 40
1
 40
1
 40
1
 10
86.563473
 20
30.699037
 30
0.0
 10
86.178703
 20
31.182137
 30
0.0
 10
85.816449
 20
31.682943
 30
0.0
 10
85.426223
 20
32.161714
 30
0.0
  0
SPLINE
  5
14a
100
AcDbEntity
  8
0
 62
1
100
AcDbSpline
 70
8
 71
3
 72
8
 73
4
 74
0
 40
0
 40
0
 40
0
 40
0
 40
1
 40
1
 40
1
 40
1
 10
85.426223
 20
32.161714
 30
0.0
 10
86.522513
 20
32.660721
 30
0.0
 10
87.528697
 20
33.343243
 30
0.0
 10
88.462922
 20
34.099194
 30
0.0
  0
SPLINE
  5
14b
100
AcDbEntity
  8
0
 62
1
100
AcDbSpline
 70
8
 71
3
 72
8
 73
4
 74
0
 40
0
 40
0
 40
0
 40
0
 40
1
 40
1
 40
1
 40
1
 10
88.462922
 20
34.099194
 30
0.0
 10
89.051683
 20
34.573872
 30
0.0
 10
89.413088
 20
35.253410
 30
0.0
 10
89.782388
 20
35.898196
 30
0.0
  0
SPLINE
  5
14c
100
AcDbEntity
  8
0
 62
1
100
AcDbSpline
 70
8
 71
3
 72
8
 73
4
 74
0
 40
0
 40
0
 40
0
 40
0
 40
1
 40
1
 40
1
 40
1
 10
89.782388
 20
35.898196
 30
0.0
 10
90.154316
 20
36.567010
 30
0.0
 10
90.383270
 20
37.305499
 30
0.0
 10
90.493694
 20
38.061146
 30
0.0
  0
SPLINE
  5
14d
100
AcDbEntity
  8
0
 62
1
100
AcDbSpline
 70
8
 71
3
 72
8
 73
4
 74
0
 40
0
 40
0
 40
0
 40
0
 40
1
 40
1
 40
1
 40
1
 10
90.493694
 20
38.061146
 30
0.0
 10
90.671811
 20
39.093992
 30
0.0
 10
90.704017
 20
40.150775
 30
0.0
 10
90.586010
 20
41.192164
 30
0.0
  0
SPLINE
  5
14e
100
AcDbEntity
  8
0
 62
1
100
AcDbSpline
 70
8
 71
3
 72
8
 73
4
 74
0
 40
0
 40
0
 40
0
 40
0
 40
1
 40
1
 40
1
 40
1
 10
90.586010
 20
41.192164
 30
0.0
 10
90.456504
 20
42.558737
 30
0.0
 10
90.373774
 20
43.928754
 30
0.0
 10
90.123640
 20
45.282143
 30
0.0
  0
SPLINE
  5
14f
100
AcDbEntity
  8
0
 62
1
100
AcDbSpline
 70
8
 71
3
 72
8
 73
4
 74
0
 40
0
 40
0
 40
0
 40
0
 40
1
 40
1
 40
1
 40
1
 10
90.123640
 20
45.282143
 30
0.0
 10
89.913040
 20
46.474286
 30
0.0
 10
89.646437
 20
47.656624
 30
0.0
 10
89.477890
 20
48.856390
 30
0.0
  0
SPLINE
  5
150
100
AcDbEntity
  8
0
 62
1
100
AcDbSpline
 70
8
 71
3
 72
8
 73
4
 74
0
 40
0
 40
0
 40
0
 40
0
 40
1
 40
1
 40
1
 40
1
 10
89.477890
 20
48.856390
 30
0.0
 10
89.288242
 20
50.015336
 30
0.0
 10
89.113924
 20
51.201571
 30
0.0
 10
88.582842
 20
52.263569
 30
0.0
  0
SPLINE
  5
151
100
AcDbEntity
  8
0
 62
1
100
AcDbSpline
 70
8
 71
3
 72
8
 73
4
 74
0
 40
0
 40
0
 40
0
 40
0
 40
1
 40
1
 40
1
 40
1
 10
88.582842
 20
52.263569
 30
0.0
 10
88.240143
 20
53.012628
 30
0.0
 10
87.799538
 20
53.726974
 30
0.0
 10
87.190456
 20
54.289681
 30
0.0
  0
SPLINE
  5
152
100
AcDbEntity
  8
0
 62
1
100
AcDbSpline
 70
8
 71
3
 72
8
 73
4
 74
0
 40
0
 40
0
 40
0
 40
0
 40
1
 40
1
 40
1
 40
1
 10
87.190456
 20
54.289681
 30
0.0
 10
86.866892
 20
54.594405
 30
0.0
 10
86.526456
 20
54.890291
 30
0.0
 10
86.142976
 20
55.116898
 30
0.0
  0
SPLINE
  5
153
100
AcDbEntity
  8
0
 62
1
100
AcDbSpline
 70
8
 71
3
 72
8
 73
4
 74
0
 40
0
 40
0
 40
0
 40
0
 40
1
 40
1
 40
1
 40
1
 10
86.142976
 20
55.116898
 30
0.0
 10
86.449340
 20
55.927632
 30
0.0
 10
86.307785
 20
56.821249
 30
0.0
 10
86.114036
 20
57.640774
 30
0.0
  0
SPLINE
  5
154
100
AcDbEntity
  8
0
 62
1
100
AcDbSpline
 70
8
 71
3
 72
8
 73
4
 74
0
 40
0
 40
0
 40
0
 40
0
 40
1
 40
1
 40
1
 40
1
 10
86.114036
 20
57.640774
 30
0.0
 10
85.897433
 20
58.437045
 30
0.0
 10
85.573689
 20
59.211441
 30
0.0
 10
85.123749
 20
59.904390
 30
0.0
  0
SPLINE
  5
155
100
AcDbEntity
  8
0
 62
1
100
AcDbSpline
 70
8
 71
3
 72
8
 73
4
 74
0
 40
0
 40
0
 40
0
 40
0
 40
1
 40
1
 40
1
 40
1
 10
85.123749
 20
59.904390
 30
0.0
 10
84.686858
 20
60.522337
 30
0.0
 10
84.119367
 20
61.031771
 30
0.0
 10
83.586155
 20
61.563327
 30
0.0
  0
SPLINE
  5
156
100
AcDbEntity
  8
0
 62
1
100
AcDbSpline
 70
8
 71
3
 72
8
 73
4
 74
0
 40
0
 40
0
 40
0
 40
0
 40
1
 40
1
 40
1
 40
1
 10
83.586155
 20
61.563327
 30
0.0
 10
83.015708
 20
62.073843
 30
0.0
 10
82.294245
 20
62.378453
 30
0.0
 10
81.742097
 20
62.912416
 30
0.0
  0
SPLINE
  5
157
100
AcDbEntity
  8
0
 62
1
100
AcDbSpline
 70
8
 71
3
 72
8
 73
4
 74
0
 40
0
 40
0
 40
0
 40
0
 40
1
 40
1
 40
1
 40
1
 10
81.742097
 20
62.912416
 30
0.0
 10
80.791925
 20
63.760995
 30
0.0
 10
79.920036
 20
64.702560
 30
0.0
 10
78.874958
 20
65.443917
 30
0.0
  0
SPLINE
  5
158
100
AcDbEntity
  8
0
 62
1
100
AcDbSpline
 70
8
 71
3
 72
8
 73
4
 74
0
 40
0
 40
0
 40
0
 40
0
 40
1
 40
1
 40
1
 40
1
 10
78.874958
 20
65.443917
 30
0.0
 10
77.957209
 20
66.127608
 30
0.0
 10
76.956899
 20
66.691938
 30
0.0
 10
75.926022
 20
67.184931
 30
0.0
  0
SPLINE
  5
159
100
AcDbEntity
  8
0
 62
1
100
AcDbSpline
 70
8
 71
3
 72
8
 73
4
 74
0
 40
0
 40
0
 40
0
 40
0
 40
1
 40
1
 40
1
 40
1
 10
75.926022
 20
67.184931
 30
0.0
 10
75.037223
 20
67.671433
 30
0.0
 10
74.214432
 20
68.330055
 30
0.0
 10
73.210434
 20
68.566203
 30
0.0
  0
SPLINE
  5
15a
100
AcDbEntity
  8
0
 62
1
100
AcDbSpline
 70
8
 71
3
 72
8
 73
4
 74
0
 40
0
 40
0
 40
0
 40
0
 40
1
 40
1
 40
1
 40
1
 10
73.210434
 20
68.566203
 30
0.0
 10
72.431300
 20
68.724482
 30
0.0
 10
71.609705
 20
68.636305
 30
0.0
 10
70.861980
 20
68.378693
 30
0.0
  0
SPLINE
  5
15b
100
AcDbEntity
  8
0
 62
1
100
AcDbSpline
 70
8
 71
3
 72
8
 73
4
 74
0
 40
0
 40
0
 40
0
 40
0
 40
1
 40
1
 40
1
 40
1
 10
70.861980
 20
68.378693
 30
0.0
 10
70.732292
 20
68.337151
 30
0.0
 10
70.565602
 20
68.202809
 30
0.0
 10
70.579146
 20
68.433351
 30
0.0
  0
SPLINE
  5
15c
100
AcDbEntity
  8
0
 62
1
100
AcDbSpline
 70
8
 71
3
 72
8
 73
4
 74
0
 40
0
 40
0
 40
0
 40
0
 40
1
 40
1
 40
1
 40
1
 10
70.579146
 20
68.433351
 30
0.0
 10
70.295626
 20
69.555872
 30
0.0
 10
69.672630
 20
70.586884
 30
0.0
 10
68.841910
 20
71.388664
 30
0.0
  0
SPLINE
  5
15d
100
AcDbEntity
  8
0
 62
1
100
AcDbSpline
 70
8
 71
3
 72
8
 73
4
 74
0
 40
0
 40
0
 40
0
 40
0
 40
1
 40
1
 40
1
 40
1
 10
68.841910
 20
71.388664
 30
0.0
 10
67.666330
 20
72.381373
 30
0.0
 10
66.186388
 20
72.882890
 30
0.0
 10
64.788910
 20
73.464860
 30
0.0
  0
SPLINE
  5
15e
100
AcDbEntity
  8
0
 62
1
100
AcDbSpline
 70
8
 71
3
 72
8
 73
4
 74
0
 40
0
 40
0
 40
0
 40
0
 40
1
 40
1
 40
1
 40
1
 10
64.788910
 20
73.464860
 30
0.0
 10
64.049775
 20
73.761526
 30
0.0
 10
63.295239
 20
73.945528
 30
0.0
 10
62.557115
 20
74.226658
 30
0.0
  0
SPLINE
  5
15f
100
AcDbEntity
  8
0
 62
1
100
AcDbSpline
 70
8
 71
3
 72
8
 73
4
 74
0
 40
0
 40
0
 40
0
 40
0
 40
1
 40
1
 40
1
 40
1
 10
62.557115
 20
74.226658
 30
0.0
 10
61.741596
 20
74.532744
 30
0.0
 10
60.904311
 20
74.776463
 30
0.0
 10
60.052954
 20
74.960308
 30
0.0
  0
SPLINE
  5
160
100
AcDbEntity
  8
0
 62
1
100
AcDbSpline
 70
8
 71
3
 72
8
 73
4
 74
0
 40
0
 40
0
 40
0
 40
0
 40
1
 40
1
 40
1
 40
1
 10
60.052954
 20
74.960308
 30
0.0
 10
58.574589
 20
75.318673
 30
0.0
 10
57.054900
 20
75.443189
 30
0.0
 10
55.562200
 20
75.724909
 30
0.0
  0
SPLINE
  5
161
100
AcDbEntity
  8
0
 62
1
100
AcDbSpline
 70
8
 71
3
 72
8
 73
4
 74
0
 40
0
 40
0
 40
0
 40
0
 40
1
 40
1
 40
1
 40
1
 10
55.562200
 20
75.724909
 30
0.0
 10
54.191040
 20
75.965492
 30
0.0
 10
52.825179
 20
76.235994
 30
0.0
 10
51.454362
 20
76.476812
 30
0.0
  0
SPLINE
  5
162
100
AcDbEntity
  8
0
 62
1
100
AcDbSpline
 70
8
 71
3
 72
8
 73
4
 74
0
 40
0
 40
0
 40
0
 40
0
 40
1
 40
1
 40
1
 40
1
 10
51.454362
 20
76.476812
 30
0.0
 10
50.302843
 20
76.667386
 30
0.0
 10
49.151329
 20
76.784859
 30
0.0
 10
47.995214
 20
76.891967
 30
0.0
  0
SPLINE
  5
163
100
AcDbEntity
  8
0
 62
1
100
AcDbSpline
 70
8
 71
3
 72
8
 73
4
 74
0
 40
0
 40
0
 40
0
 40
0
 40
1
 40
1
 40
1
 40
1
 10
47.995214
 20
76.891967
 30
0.0
 10
46.752778
 20
76.993660
 30
0.0
 10
45.420422
 20
76.903477
 30
0.0
 10
44.339334
 20
76.223617
 30
0.0
  0
SPLINE
  5
164
100
AcDbEntity
  8
0
 62
1
100
AcDbSpline
 70
8
 71
3
 72
8
 73
4
 74
0
 40
0
 40
0
 40
0
 40
0
 40
1
 40
1
 40
1
 40
1
 10
44.339334
 20
76.223617
 30
0.0
 10
43.665883
 20
75.762625
 30
0.0
 10
43.119518
 20
75.141794
 30
0.0
 10
42.682588
 20
74.456798
 30
0.0
  0
SPLINE
  5
165
100
AcDbEntity
  8
0
 62
1
100
AcDbSpline
 70
8
 71
3
 72
8
 73
4
 74
0
 40
0
 40
0
 40
0
 40
0
 40
1
 40
1
 40
1
 40
1
 10
42.682588
 20
74.456798
 30
0.0
 10
42.284350
 20
74.993553
 30
0.0
 10
41.908452
 20
75.556862
 30
0.0
 10
41.428341
 20
76.024587
 30
0.0
  0
SPLINE
  5
166
100
AcDbEntity
  8
0
 62
1
100
AcDbSpline
 70
8
 71
3
 72
8
 73
4
 74
0
 40
0
 40
0
 40
0
 40
0
 40
1
 40
1
 40
1
 40
1
 10
41.428341
 20
76.024587
 30
0.0
 10
40.525694
 20
76.830616
 30
0.0
 10
39.292125
 20
77.227133
 30
0.0
 10
38.089589
 20
77.171362
 30
0.0
  0
LWPOLYLINE
  5
167
100
AcDbEntity
  8
0
 62
1
100
AcDbPolyline
 90
1
 70
1
 10
38.089589
 20
77.171362
 30
0.0
  0
ENDSEC
  0
SECTION
  2
OBJECTS
  0
DICTIONARY
  5
C
330
0
100
AcDbDictionary
  3
ACAD_GROUP
350
D
  3
ACAD_MLINESTYLE
350
17
  0
DICTIONARY
  5
D
330
C
100
AcDbDictionary
  0
DICTIONARY
  5
1A
330
C
100
AcDbDictionary
  0
DICTIONARY
  5
17
330
C
100
AcDbDictionary
  3
STANDARD
350
18
  0
DICTIONARY
  5
19
330
C
100
AcDbDictionary
  0
ENDSEC
  0
EOF
